  0
SECTION
  2
HEADER
  9
$ACADVER
  1
AC1015
  9
$ACADMAINTVER
 70
     6
  9
$DWGCODEPAGE
  3
ANSI_1252
  9
$INSBASE
 10
0.0
 20
0.0
 30
0.0
  9
$EXTMIN
 10
-271.5760400165
 20
-167.5103903454
 30
0.0
  9
$EXTMAX
 10
266.9239599835
 20
170.9896096546
 30
0.0
  9
$LIMMIN
 10
0.0
 20
0.0
  9
$LIMMAX
 10
420.0
 20
297.0
  9
$ORTHOMODE
 70
     0
  9
$REGENMODE
 70
     1
  9
$FILLMODE
 70
     1
  9
$QTEXTMODE
 70
     0
  9
$MIRRTEXT
 70
     1
  9
$LTSCALE
 40
1.0
  9
$ATTMODE
 70
     1
  9
$TEXTSIZE
 40
3.5
  9
$TRACEWID
 40
1.0
  9
$TEXTSTYLE
  7
Standard
  9
$CLAYER
  8
0
  9
$CELTYPE
  6
ByLayer
  9
$CECOLOR
 62
   256
  9
$CELTSCALE
 40
1.0
  9
$DISPSILH
 70
     0
  9
$DIMSCALE
 40
1.0
  9
$DIMASZ
 40
3.302
  9
$DIMEXO
 40
1.0
  9
$DIMDLI
 40
3.75
  9
$DIMRND
 40
0.0
  9
$DIMDLE
 40
0.0
  9
$DIMEXE
 40
1.0
  9
$DIMTP
 40
0.0
  9
$DIMTM
 40
0.0
  9
$DIMTXT
 40
3.5
  9
$DIMCEN
 40
2.5
  9
$DIMTSZ
 40
0.0
  9
$DIMTOL
 70
     0
  9
$DIMLIM
 70
     0
  9
$DIMTIH
 70
     1
  9
$DIMTOH
 70
     1
  9
$DIMSE1
 70
     0
  9
$DIMSE2
 70
     0
  9
$DIMTAD
 70
     1
  9
$DIMZIN
 70
     0
  9
$DIMBLK
  1

  9
$DIMASO
 70
     1
  9
$DIMSHO
 70
     1
  9
$DIMPOST
  1

  9
$DIMAPOST
  1

  9
$DIMALT
 70
     0
  9
$DIMALTD
 70
     3
  9
$DIMALTF
 40
0.0393700787
  9
$DIMLFAC
 40
1.0
  9
$DIMTOFL
 70
     1
  9
$DIMTVP
 40
0.0
  9
$DIMTIX
 70
     0
  9
$DIMSOXD
 70
     0
  9
$DIMSAH
 70
     0
  9
$DIMBLK1
  1

  9
$DIMBLK2
  1

  9
$DIMSTYLE
  2
ISO-25
  9
$DIMCLRD
 70
     0
  9
$DIMCLRE
 70
     0
  9
$DIMCLRT
 70
     0
  9
$DIMTFAC
 40
1.0
  9
$DIMGAP
 40
1.524
  9
$DIMJUST
 70
     0
  9
$DIMSD1
 70
     0
  9
$DIMSD2
 70
     0
  9
$DIMTOLJ
 70
     0
  9
$DIMTZIN
 70
     0
  9
$DIMALTZ
 70
     0
  9
$DIMALTTZ
 70
     0
  9
$DIMUPT
 70
     0
  9
$DIMDEC
 70
     2
  9
$DIMTDEC
 70
     2
  9
$DIMALTU
 70
     2
  9
$DIMALTTD
 70
     3
  9
$DIMTXSTY
  7
Standard
  9
$DIMAUNIT
 70
     0
  9
$DIMADEC
 70
     2
  9
$DIMALTRND
 40
0.0
  9
$DIMAZIN
 70
     0
  9
$DIMDSEP
 70
    44
  9
$DIMATFIT
 70
     3
  9
$DIMFRAC
 70
     0
  9
$DIMLDRBLK
  1

  9
$DIMLUNIT
 70
     2
  9
$DIMLWD
 70
    -2
  9
$DIMLWE
 70
    -2
  9
$DIMTMOVE
 70
     0
  9
$LUNITS
 70
     2
  9
$LUPREC
 70
     2
  9
$SKETCHINC
 40
1.0
  9
$FILLETRAD
 40
10.0
  9
$AUNITS
 70
     0
  9
$AUPREC
 70
     2
  9
$MENU
  1
.
  9
$ELEVATION
 40
0.0
  9
$PELEVATION
 40
0.0
  9
$THICKNESS
 40
0.0
  9
$LIMCHECK
 70
     0
  9
$CHAMFERA
 40
0.0
  9
$CHAMFERB
 40
0.0
  9
$CHAMFERC
 40
0.0
  9
$CHAMFERD
 40
0.0
  9
$SKPOLY
 70
     0
  9
$TDCREATE
 40
2457565.001821713
  9
$TDUCREATE
 40
2457564.835155046
  9
$TDUPDATE
 40
2457565.001846632
  9
$TDUUPDATE
 40
2457564.835179965
  9
$TDINDWG
 40
0.0000000116
  9
$TDUSRTIMER
 40
0.0000000116
  9
$USRTIMER
 70
     1
  9
$ANGBASE
 50
0.0
  9
$ANGDIR
 70
     0
  9
$PDMODE
 70
     0
  9
$PDSIZE
 40
-1.0
  9
$PLINEWID
 40
0.0
  9
$SPLFRAME
 70
     0
  9
$SPLINETYPE
 70
     6
  9
$SPLINESEGS
 70
     8
  9
$HANDSEED
  5
E7
  9
$SURFTAB1
 70
     6
  9
$SURFTAB2
 70
     6
  9
$SURFTYPE
 70
     6
  9
$SURFU
 70
     6
  9
$SURFV
 70
     6
  9
$UCSBASE
  2

  9
$UCSNAME
  2

  9
$UCSORG
 10
0.0
 20
0.0
 30
0.0
  9
$UCSXDIR
 10
1.0
 20
0.0
 30
0.0
  9
$UCSYDIR
 10
0.0
 20
1.0
 30
0.0
  9
$UCSORTHOREF
  2

  9
$UCSORTHOVIEW
 70
     0
  9
$UCSORGTOP
 10
0.0
 20
0.0
 30
0.0
  9
$UCSORGBOTTOM
 10
0.0
 20
0.0
 30
0.0
  9
$UCSORGLEFT
 10
0.0
 20
0.0
 30
0.0
  9
$UCSORGRIGHT
 10
0.0
 20
0.0
 30
0.0
  9
$UCSORGFRONT
 10
0.0
 20
0.0
 30
0.0
  9
$UCSORGBACK
 10
0.0
 20
0.0
 30
0.0
  9
$PUCSBASE
  2

  9
$PUCSNAME
  2

  9
$PUCSORG
 10
0.0
 20
0.0
 30
0.0
  9
$PUCSXDIR
 10
1.0
 20
0.0
 30
0.0
  9
$PUCSYDIR
 10
0.0
 20
1.0
 30
0.0
  9
$PUCSORTHOREF
  2

  9
$PUCSORTHOVIEW
 70
     0
  9
$PUCSORGTOP
 10
0.0
 20
0.0
 30
0.0
  9
$PUCSORGBOTTOM
 10
0.0
 20
0.0
 30
0.0
  9
$PUCSORGLEFT
 10
0.0
 20
0.0
 30
0.0
  9
$PUCSORGRIGHT
 10
0.0
 20
0.0
 30
0.0
  9
$PUCSORGFRONT
 10
0.0
 20
0.0
 30
0.0
  9
$PUCSORGBACK
 10
0.0
 20
0.0
 30
0.0
  9
$USERI1
 70
     0
  9
$USERI2
 70
     0
  9
$USERI3
 70
     0
  9
$USERI4
 70
     0
  9
$USERI5
 70
     0
  9
$USERR1
 40
0.0
  9
$USERR2
 40
0.0
  9
$USERR3
 40
0.0
  9
$USERR4
 40
0.0
  9
$USERR5
 40
0.0
  9
$WORLDVIEW
 70
     1
  9
$SHADEDGE
 70
     3
  9
$SHADEDIF
 70
    70
  9
$TILEMODE
 70
     1
  9
$MAXACTVP
 70
    64
  9
$PINSBASE
 10
0.0
 20
0.0
 30
0.0
  9
$PLIMCHECK
 70
     0
  9
$PEXTMIN
 10
1.0000000000E+20
 20
1.0000000000E+20
 30
1.0000000000E+20
  9
$PEXTMAX
 10
-1.0000000000E+20
 20
-1.0000000000E+20
 30
-1.0000000000E+20
  9
$PLIMMIN
 10
0.0
 20
0.0
  9
$PLIMMAX
 10
420.0
 20
297.0
  9
$UNITMODE
 70
     0
  9
$VISRETAIN
 70
     1
  9
$PLINEGEN
 70
     0
  9
$PSLTSCALE
 70
     1
  9
$TREEDEPTH
 70
  3020
  9
$CMLSTYLE
  2
Standard
  9
$CMLJUST
 70
     0
  9
$CMLSCALE
 40
20.0
  9
$PROXYGRAPHICS
 70
     1
  9
$MEASUREMENT
 70
     1
  9
$CELWEIGHT
370
    -1
  9
$ENDCAPS
280
     0
  9
$JOINSTYLE
280
     0
  9
$LWDISPLAY
290
     1
  9
$INSUNITS
 70
     4
  9
$HYPERLINKBASE
  1

  9
$STYLESHEET
  1

  9
$XEDIT
290
     1
  9
$CEPSNTYPE
380
     0
  9
$PSTYLEMODE
290
     1
  9
$FINGERPRINTGUID
  2
{CFFE28DF-4C1A-489B-967B-8C525945F652}
  9
$VERSIONGUID
  2
{FAEB1C32-E019-11D5-929B-00C0DF256EC4}
  9
$EXTNAMES
290
     1
  9
$PSVPSCALE
 40
0.0
  9
$OLESTARTUP
290
     0
  0
ENDSEC
  0
SECTION
  2
CLASSES
  0
CLASS
  1
ACDBDICTIONARYWDFLT
  2
AcDbDictionaryWithDefault
  3
ObjectDBX Classes
 90
        0
280
     0
281
     0
  0
CLASS
  1
VISUALSTYLE
  2
AcDbVisualStyle
  3
ObjectDBX Classes
 90
     4095
280
     0
281
     0
  0
CLASS
  1
MATERIAL
  2
AcDbMaterial
  3
ObjectDBX Classes
 90
     1153
280
     0
281
     0
  0
CLASS
  1
SCALE
  2
AcDbScale
  3
ObjectDBX Classes
 90
     1153
280
     0
281
     0
  0
CLASS
  1
TABLESTYLE
  2
AcDbTableStyle
  3
ObjectDBX Classes
 90
     4095
280
     0
281
     0
  0
CLASS
  1
MLEADERSTYLE
  2
AcDbMLeaderStyle
  3
ACDB_MLEADERSTYLE_CLASS
 90
     4095
280
     0
281
     0
  0
CLASS
  1
SUN
  2
AcDbSun
  3
SCENEOE
 90
     1153
280
     0
281
     0
  0
CLASS
  1
ACDBPLACEHOLDER
  2
AcDbPlaceHolder
  3
ObjectDBX Classes
 90
        0
280
     0
281
     0
  0
CLASS
  1
LAYOUT
  2
AcDbLayout
  3
ObjectDBX Classes
 90
        0
280
     0
281
     0
  0
ENDSEC
  0
SECTION
  2
TABLES
  0
TABLE
  2
VPORT
  5
8
330
0
100
AcDbSymbolTable
 70
     1
  0
VPORT
  5
29
330
8
100
AcDbSymbolTableRecord
100
AcDbViewportTableRecord
  2
*Active
 70
     0
 10
0.0
 20
0.0
 11
1.0
 21
1.0
 12
-2.3260400165
 22
1.7396096546
 13
0.0
 23
0.0
 14
10.0
 24
10.0
 15
10.0
 25
10.0
 16
0.0
 26
0.0
 36
1.0
 17
0.0
 27
0.0
 37
0.0
 40
345.27
 41
1.5908419498
 42
50.0
 43
0.0
 44
0.0
 50
0.0
 51
0.0
 71
     0
 72
   100
 73
     1
 74
     3
 75
     0
 76
     0
 77
     0
 78
     0
281
     0
 65
     1
110
0.0
120
0.0
130
0.0
111
1.0
121
0.0
131
0.0
112
0.0
122
1.0
132
0.0
 79
     0
146
0.0
  0
ENDTAB
  0
TABLE
  2
LTYPE
  5
5
330
0
100
AcDbSymbolTable
 70
     6
  0
LTYPE
  5
14
330
5
100
AcDbSymbolTableRecord
100
AcDbLinetypeTableRecord
  2
ByBlock
 70
     0
  3

 72
    65
 73
     0
 40
0.0
  0
LTYPE
  5
15
330
5
100
AcDbSymbolTableRecord
100
AcDbLinetypeTableRecord
  2
ByLayer
 70
     0
  3

 72
    65
 73
     0
 40
0.0
  0
LTYPE
  5
16
330
5
100
AcDbSymbolTableRecord
100
AcDbLinetypeTableRecord
  2
Continuous
 70
     0
  3
Solid line
 72
    65
 73
     0
 40
0.0
  0
LTYPE
  5
6E
330
5
100
AcDbSymbolTableRecord
100
AcDbLinetypeTableRecord
  2
HIDDEN
 70
     0
  3
Hidden __ __ __ __ __ __ __ __ __ __ __ __ __ __
 72
    65
 73
     2
 40
1.905
 49
1.27
 74
     0
 49
-0.635
 74
     0
  0
LTYPE
  5
6F
330
5
100
AcDbSymbolTableRecord
100
AcDbLinetypeTableRecord
  2
PHANTOM
 70
     0
  3
Phantom ______  __  __  ______  __  __  ______
 72
    65
 73
     6
 40
12.7
 49
6.35
 74
     0
 49
-1.27
 74
     0
 49
1.27
 74
     0
 49
-1.27
 74
     0
 49
1.27
 74
     0
 49
-1.27
 74
     0
  0
LTYPE
  5
70
330
5
100
AcDbSymbolTableRecord
100
AcDbLinetypeTableRecord
  2
CENTER
 70
     0
  3
Center ____ _ ____ _ ____ _ ____ _ ____ _ ____
 72
    65
 73
     4
 40
10.16
 49
6.35
 74
     0
 49
-1.27
 74
     0
 49
1.27
 74
     0
 49
-1.27
 74
     0
  0
LTYPE
  5
71
330
5
100
AcDbSymbolTableRecord
100
AcDbLinetypeTableRecord
  2
CENTERX2
 70
     0
  3
Center (2x) ________  __  ________  __  _____
 72
    65
 73
     4
 40
20.32
 49
12.7
 74
     0
 49
-2.54
 74
     0
 49
2.54
 74
     0
 49
-2.54
 74
     0
  0
LTYPE
  5
72
330
5
100
AcDbSymbolTableRecord
100
AcDbLinetypeTableRecord
  2
DOT2
 70
     0
  3
Dot (.5x) ........................................
 72
    65
 73
     2
 40
0.635
 49
0.0
 74
     0
 49
-0.635
 74
     0
  0
ENDTAB
  0
TABLE
  2
LAYER
  5
2
330
0
100
AcDbSymbolTable
 70
     1
  0
LAYER
  5
10
330
2
100
AcDbSymbolTableRecord
100
AcDbLayerTableRecord
  2
0
 70
     0
 62
     7
  6
Continuous
370
    -3
390
F
  0
ENDTAB
  0
TABLE
  2
STYLE
  5
3
330
0
100
AcDbSymbolTable
 70
     1
  0
STYLE
  5
11
330
3
100
AcDbSymbolTableRecord
100
AcDbTextStyleTableRecord
  2
Standard
 70
     0
 40
0.0
 41
1.0
 50
0.0
 71
     0
 42
3.5
  3
txt
  4

  0
ENDTAB
  0
TABLE
  2
VIEW
  5
6
330
0
100
AcDbSymbolTable
 70
     0
  0
ENDTAB
  0
TABLE
  2
UCS
  5
7
330
0
100
AcDbSymbolTable
 70
     0
  0
ENDTAB
  0
TABLE
  2
APPID
  5
9
330
0
100
AcDbSymbolTable
 70
     1
  0
APPID
  5
12
330
9
100
AcDbSymbolTableRecord
100
AcDbRegAppTableRecord
  2
ACAD
 70
     0
  0
ENDTAB
  0
TABLE
  2
DIMSTYLE
  5
A
330
0
100
AcDbSymbolTable
 70
     1
100
AcDbDimStyleTable
  0
DIMSTYLE
105
27
330
A
100
AcDbSymbolTableRecord
100
AcDbDimStyleTableRecord
  2
ISO-25
 70
     0
 41
2.5
 42
0.625
 43
3.75
 44
1.25
 73
     0
 74
     0
 77
     1
 78
     8
140
2.5
141
2.5
143
0.0393700787
147
0.625
171
     3
172
     1
178
     0
271
     2
272
     2
274
     3
278
    44
283
     0
284
     8
340
11
  0
ENDTAB
  0
TABLE
  2
BLOCK_RECORD
  5
1
330
0
100
AcDbSymbolTable
 70
     1
  0
BLOCK_RECORD
  5
1F
330
1
100
AcDbSymbolTableRecord
100
AcDbBlockTableRecord
  2
*Model_Space
340
22
  0
BLOCK_RECORD
  5
1B
330
1
100
AcDbSymbolTableRecord
100
AcDbBlockTableRecord
  2
*Paper_Space
340
1E
  0
BLOCK_RECORD
  5
23
330
1
100
AcDbSymbolTableRecord
100
AcDbBlockTableRecord
  2
*Paper_Space0
340
26
  0
ENDTAB
  0
ENDSEC
  0
SECTION
  2
BLOCKS
  0
BLOCK
  5
20
330
1F
100
AcDbEntity
  8
0
100
AcDbBlockBegin
  2
*Model_Space
 70
     0
 10
0.0
 20
0.0
 30
0.0
  3
*Model_Space
  1

  0
ENDBLK
  5
21
330
1F
100
AcDbEntity
  8
0
100
AcDbBlockEnd
  0
BLOCK
  5
1C
330
1B
100
AcDbEntity
 67
     1
  8
0
100
AcDbBlockBegin
  2
*Paper_Space
 70
     0
 10
0.0
 20
0.0
 30
0.0
  3
*Paper_Space
  1

  0
ENDBLK
  5
1D
330
1B
100
AcDbEntity
 67
     1
  8
0
100
AcDbBlockEnd
  0
BLOCK
  5
24
330
23
100
AcDbEntity
  8
0
100
AcDbBlockBegin
  2
*Paper_Space0
 70
     0
 10
0.0
 20
0.0
 30
0.0
  3
*Paper_Space0
  1

  0
ENDBLK
  5
25
330
23
100
AcDbEntity
  8
0
100
AcDbBlockEnd
  0
ENDSEC
  0
SECTION
  2
ENTITIES
  0
LINE
  5
73
330
1F
100
AcDbEntity
  8
0
  6
Continuous
 62
     7
370
    15
100
AcDbLine
 10
-78.2679274712
 20
28.9395119983
 30
0.0
 11
-78.2679274712
 21
-23.4603903454
 31
0.0
  0
LINE
  5
74
330
1F
100
AcDbEntity
  8
0
  6
Continuous
 62
     7
370
    15
100
AcDbLine
 10
-78.2679274712
 20
-23.4603903454
 30
0.0
 11
-85.8621162167
 21
-23.4603903454
 31
0.0
  0
LINE
  5
75
330
1F
100
AcDbEntity
  8
0
  6
Continuous
 62
     7
370
    15
100
AcDbLine
 10
-85.8621162167
 20
-23.4603903454
 30
0.0
 11
-85.8621162167
 21
28.9395119983
 31
0.0
  0
LINE
  5
76
330
1F
100
AcDbEntity
  8
0
  6
Continuous
 62
     7
370
    15
100
AcDbLine
 10
-85.8621162167
 20
28.9395119983
 30
0.0
 11
-78.2679274712
 21
28.9395119983
 31
0.0
  0
SPLINE
  5
77
330
1F
100
AcDbEntity
  8
0
  6
Continuous
 62
     7
370
    15
100
AcDbSpline
210
0.0
220
0.0
230
1.0
 70
     8
 71
     3
 72
    23
 73
    19
 74
     0
 42
0.000000001
 43
0.00000001
 40
0.0
 40
0.0
 40
0.0
 40
0.0
 40
0.0674331406427605
 40
0.1314297059509985
 40
0.1918377270821789
 40
0.2505421193721662
 40
0.3069762003605656
 40
0.3628624589821812
 40
0.4186862137300574
 40
0.4757049600195971
 40
0.5333100131697158
 40
0.5919958181203872
 40
0.6522989986559113
 40
0.7151811791420095
 40
0.7813535318481653
 40
0.8503160211123201
 40
0.923344608429095
 40
1.0
 40
1.0
 40
1.0
 40
1.0
 10
-59.28245560754264
 20
12.58827435575608
 30
0.0
 10
-59.29003102389817
 20
12.99225651534373
 30
0.0
 10
-59.30479579289116
 20
13.77963281041112
 30
0.0
 10
-59.46350927198851
 20
14.91990764369648
 30
0.0
 10
-59.71343816003139
 20
15.98876931549021
 30
0.0
 10
-60.05387743335557
 20
16.98529150954435
 30
0.0
 10
-60.49520999381789
 20
17.91244056899052
 30
0.0
 10
-61.04704325125244
 20
18.75753371243018
 30
0.0
 10
-61.69189364222326
 20
19.5382093059234
 30
0.0
 10
-62.44068641835231
 20
20.23605530173292
 30
0.0
 10
-63.278709213623
 20
20.85033526793223
 30
0.0
 10
-64.18080685681664
 20
21.4056065788385
 30
0.0
 10
-65.17606345494593
 20
21.85431360557737
 30
0.0
 10
-66.25078555440896
 20
22.21805892232994
 30
0.0
 10
-67.39903797808654
 20
22.52043744791769
 30
0.0
 10
-68.63195382255206
 20
22.710729673258
 30
0.0
 10
-69.93477697442353
 20
22.85201952810769
 30
0.0
 10
-70.83152735543541
 20
22.8600489933917
 30
0.0
 10
-71.29076656131866
 20
22.86416100197154
 30
0.0
  0
LINE
  5
78
330
1F
100
AcDbEntity
  8
0
  6
Continuous
 62
     7
370
    15
100
AcDbLine
 10
-71.2907665613
 20
22.864161002
 30
0.0
 11
-71.2907665613
 21
28.9395119983
 31
0.0
  0
LINE
  5
79
330
1F
100
AcDbEntity
  8
0
  6
Continuous
 62
     7
370
    15
100
AcDbLine
 10
-71.2907665613
 20
28.9395119983
 30
0.0
 11
-71.2077051219
 21
28.9395119983
 31
0.0
  0
SPLINE
  5
7A
330
1F
100
AcDbEntity
  8
0
  6
Continuous
 62
     7
370
    15
100
AcDbSpline
210
0.0
220
0.0
230
1.0
 70
     8
 71
     3
 72
    23
 73
    19
 74
     0
 42
0.000000001
 43
0.00000001
 40
0.0
 40
0.0
 40
0.0
 40
0.0
 40
0.0669434636680604
 40
0.1328765835338012
 40
0.1975396046007472
 40
0.2616996647946108
 40
0.324449261982304
 40
0.3849716755008613
 40
0.4439044842103191
 40
0.5020224736059722
 40
0.559408976019555
 40
0.6167307089437857
 40
0.6742615498852906
 40
0.7333583132703262
 40
0.7942180840124781
 40
0.8585663761369149
 40
0.926766605596896
 40
1.0
 40
1.0
 40
1.0
 40
1.0
 10
-71.20770512191508
 20
28.93951199834836
 30
0.0
 10
-70.57046726711198
 20
28.93276313637386
 30
0.0
 10
-69.30560906580196
 20
28.91936726958155
 30
0.0
 10
-67.43283762289595
 20
28.7400378677104
 30
0.0
 10
-65.59628469198572
 20
28.48741249780985
 30
0.0
 10
-63.81090145496695
 20
28.10974720868974
 30
0.0
 10
-62.09655064628894
 20
27.61427014878714
 30
0.0
 10
-60.46784782680681
 20
27.00948139345358
 30
0.0
 10
-58.96977922542921
 20
26.22065035014538
 30
0.0
 10
-57.56304958478069
 20
25.33671786730447
 30
0.0
 10
-56.26749241073237
 20
24.31632761652239
 30
0.0
 10
-55.12774262975213
 20
23.13217819930873
 30
0.0
 10
-54.12253666252244
 20
21.81301997067961
 30
0.0
 10
-53.25194103130608
 20
20.36195416317722
 30
0.0
 10
-52.53514186848151
 20
18.75439706612111
 30
0.0
 10
-52.05339824389976
 20
16.97324843982816
 30
0.0
 10
-51.72999176648264
 20
15.0364804718153
 30
0.0
 10
-51.70250126289315
 20
13.68928469177811
 30
0.0
 10
-51.68826686207161
 20
12.99171563285922
 30
0.0
  0
SPLINE
  5
7B
330
1F
100
AcDbEntity
  8
0
  6
Continuous
 62
     7
370
    15
100
AcDbSpline
210
0.0
220
0.0
230
1.0
 70
     8
 71
     3
 72
    23
 73
    19
 74
     0
 42
0.000000001
 43
0.00000001
 40
0.0
 40
0.0
 40
0.0
 40
0.0
 40
0.0530233331331388
 40
0.1065234186489521
 40
0.1605076250744141
 40
0.2153860912041792
 40
0.2706150950692766
 40
0.3262163194498616
 40
0.382192872461613
 40
0.4395768287592068
 40
0.4983717072949013
 40
0.5590293981464469
 40
0.6227696796968223
 40
0.6896397480413762
 40
0.7600176609418144
 40
0.8345367752784701
 40
0.9145565608694405
 40
0.9786563126172608
 40
0.9786563126172608
 40
0.9786563126172608
 40
0.9786563126172608
 10
-51.68826686207161
 20
12.99171563285922
 30
0.0
 10
-51.70109026519891
 20
12.46089224825949
 30
0.0
 10
-51.72685237140985
 20
11.3944726498463
 30
0.0
 10
-51.96468740496406
 20
9.802430022223902
 30
0.0
 10
-52.33297366440862
 20
8.21891861842665
 30
0.0
 10
-52.83888752519275
 20
6.654351159077788
 30
0.0
 10
-53.50237473014435
 20
5.131841244341577
 30
0.0
 10
-54.33147909289353
 20
3.678527446708954
 30
0.0
 10
-55.34500187389529
 20
2.321710535069076
 30
0.0
 10
-56.49151419302878
 20
1.032504231556331
 30
0.0
 10
-57.81714535037126
 20
-0.1457885086790585
 30
0.0
 10
-59.31555347734582
 20
-1.207440507122724
 30
0.0
 10
-60.98249458842196
 20
-2.152610699464654
 30
0.0
 10
-62.81296704620737
 20
-2.993688533932506
 30
0.0
 10
-64.83096603808801
 20
-3.653715520340418
 30
0.0
 10
-67.03089310932957
 20
-4.143503809043764
 30
0.0
 10
-69.2080316042719
 20
-4.398651867593513
 30
0.0
 10
-70.64938816475417
 20
-4.446041615255249
 30
0.0
 10
-71.29076657107439
 20
-4.461149956235681
 30
0.0
  0
LINE
  5
7C
330
1F
100
AcDbEntity
  8
0
  6
Continuous
 62
     7
370
    15
100
AcDbLine
 10
-71.2907665711
 20
-4.4611499562
 30
0.0
 11
-71.2907665711
 21
1.614638992
 31
0.0
  0
SPLINE
  5
7D
330
1F
100
AcDbEntity
  8
0
  6
Continuous
 62
     7
370
    15
100
AcDbSpline
210
0.0
220
0.0
230
1.0
 70
     8
 71
     3
 72
    23
 73
    19
 74
     0
 42
0.000000001
 43
0.00000001
 40
0.0316783490733657
 40
0.0316783490733657
 40
0.0316783490733657
 40
0.0316783490733657
 40
0.0770503517509384
 40
0.1493594388219193
 40
0.2185836187797952
 40
0.2839564024936008
 40
0.3456252107525604
 40
0.4048371166095253
 40
0.4624611233097242
 40
0.5188537635631904
 40
0.5742144388159475
 40
0.6294041558481556
 40
0.6852296760594079
 40
0.7421837895426041
 40
0.8016913425385978
 40
0.8640690824383138
 40
0.9297773095636142
 40
1.0
 40
1.0
 40
1.0
 40
1.0
 10
-71.290766571076
 20
1.614638992018542
 30
0.0
 10
-71.00189126586267
 20
1.622452435848085
 30
0.0
 10
-70.2528792497314
 20
1.648462792591215
 30
0.0
 10
-69.06569779935639
 20
1.747332079810575
 30
0.0
 10
-67.76270275784289
 20
1.955306698656727
 30
0.0
 10
-66.55101503060277
 20
2.268154099869583
 30
0.0
 10
-65.42541840673643
 20
2.645865695622955
 30
0.0
 10
-64.38390324108006
 20
3.107252387580782
 30
0.0
 10
-63.43183930938591
 20
3.669182421233536
 30
0.0
 10
-62.56175191210284
 20
4.309682623676075
 30
0.0
 10
-61.77964095296616
 20
5.034895961319915
 30
0.0
 10
-61.11535613110336
 20
5.864329002474602
 30
0.0
 10
-60.54048507472947
 20
6.769074883878874
 30
0.0
 10
-60.07320737398253
 20
7.765521564211181
 30
0.0
 10
-59.7234552397441
 20
8.851818992591184
 30
0.0
 10
-59.46091424354705
 20
10.01878774106856
 30
0.0
 10
-59.30480504351431
 20
11.27483071596031
 30
0.0
 10
-59.29006855954918
 20
12.14087230920116
 30
0.0
 10
-59.28245560754263
 20
12.58827435575607
 30
0.0
  0
LINE
  5
7E
330
1F
100
AcDbEntity
  8
0
  6
Continuous
 62
     7
370
    15
100
AcDbLine
 10
-78.7408378197
 20
-109.2603903454
 30
0.0
 11
-156.7145440457
 21
-109.2603903454
 31
0.0
  0
ARC
  5
7F
330
1F
100
AcDbEntity
  8
0
  6
Continuous
 62
     7
370
    15
100
AcDbCircle
 10
-156.7145440457
 20
-103.2603903454
 30
0.0
 40
6.0
100
AcDbArc
 50
143.3219595963
 51
270.0
  0
LINE
  5
80
330
1F
100
AcDbEntity
  8
0
  6
Continuous
 62
     7
370
    15
100
AcDbLine
 10
-161.5265718587
 20
-99.676483493
 30
0.0
 11
-130.7614939326
 21
-58.3689337306
 31
0.0
  0
ARC
  5
81
330
1F
100
AcDbEntity
  8
0
  6
Continuous
 62
     7
370
    15
100
AcDbCircle
 10
-125.9494661196
 20
-61.952840583
 30
0.0
 40
6.000000000000015
100
AcDbArc
 50
48.8140748343
 51
143.3219595963
  0
LINE
  5
82
330
1F
100
AcDbEntity
  8
0
  6
Continuous
 62
     7
370
    15
100
AcDbLine
 10
-121.9984384724
 20
-57.4373804148
 30
0.0
 11
-74.7898101725
 21
-98.7449301772
 31
0.0
  0
ARC
  5
83
330
1F
100
AcDbEntity
  8
0
  6
Continuous
 62
     7
370
    15
100
AcDbCircle
 10
-78.7408378197
 20
-103.2603903454
 30
0.0
 40
6.000000000000004
100
AcDbArc
 50
270.0
 51
48.8140748343
  0
LINE
  5
84
330
1F
100
AcDbEntity
  8
0
  6
Continuous
 62
     7
370
    15
100
AcDbLine
 10
74.0887577867
 20
-109.2603903454
 30
0.0
 11
152.0624640127
 21
-109.2603903454
 31
0.0
  0
ARC
  5
85
330
1F
100
AcDbEntity
  8
0
  6
Continuous
 62
     7
370
    15
100
AcDbCircle
 10
74.0887577867
 20
-103.2603903454
 30
0.0
 40
6.0
100
AcDbArc
 50
131.1859251657
 51
270.0
  0
LINE
  5
86
330
1F
100
AcDbEntity
  8
0
  6
Continuous
 62
     7
370
    15
100
AcDbLine
 10
70.1377301395
 20
-98.7449301772
 30
0.0
 11
117.3463584393
 21
-57.4373804148
 31
0.0
  0
ARC
  5
87
330
1F
100
AcDbEntity
  8
0
  6
Continuous
 62
     7
370
    15
100
AcDbCircle
 10
121.2973860866
 20
-61.952840583
 30
0.0
 40
6.000000000000013
100
AcDbArc
 50
36.6780404037
 51
131.1859251657
  0
LINE
  5
88
330
1F
100
AcDbEntity
  8
0
  6
Continuous
 62
     7
370
    15
100
AcDbLine
 10
126.1094138996
 20
-58.3689337306
 30
0.0
 11
156.8744918257
 21
-99.676483493
 31
0.0
  0
ARC
  5
89
330
1F
100
AcDbEntity
  8
0
  6
Continuous
 62
     7
370
    15
100
AcDbCircle
 10
152.0624640127
 20
-103.2603903454
 30
0.0
 40
6.0
100
AcDbArc
 50
270.0
 51
36.6780404037
  0
LINE
  5
8A
330
1F
100
AcDbEntity
  8
0
  6
Continuous
 62
     7
370
    15
100
AcDbLine
 10
197.6935373507
 20
99.3953357044
 30
0.0
 11
134.0418012586
 21
4.6502200663
 31
0.0
  0
ARC
  5
8B
330
1F
100
AcDbEntity
  8
0
  6
Continuous
 62
     7
370
    15
100
AcDbCircle
 10
202.6739599835
 20
96.04938436
 30
0.0
 40
6.000000000000012
100
AcDbArc
 50
0.0
 51
146.1059744493
  0
LINE
  5
8C
330
1F
100
AcDbEntity
  8
0
  6
Continuous
 62
     7
370
    15
100
AcDbLine
 10
208.6739599835
 20
96.04938436
 30
0.0
 11
208.6739599835
 21
-84.1594269138
 31
0.0
  0
ARC
  5
8D
330
1F
100
AcDbEntity
  8
0
  6
Continuous
 62
     7
370
    15
100
AcDbCircle
 10
202.6739599835
 20
-84.1594269138
 30
0.0
 40
6.000000000000038
100
AcDbArc
 50
216.6780404037
 51
0.0
  0
LINE
  5
8E
330
1F
100
AcDbEntity
  8
0
  6
Continuous
 62
     7
370
    15
100
AcDbLine
 10
134.2101960784
 20
-2.2796381306
 30
0.0
 11
197.8619321705
 21
-87.7433337662
 31
0.0
  0
ARC
  5
8F
330
1F
100
AcDbEntity
  8
0
  6
Continuous
 62
     7
370
    15
100
AcDbCircle
 10
139.0222238914
 20
1.3042687218
 30
0.0
 40
6.000000000000025
100
AcDbArc
 50
146.1059744493
 51
216.6780404037
  0
LINE
  5
90
330
1F
100
AcDbEntity
  8
0
  6
Continuous
 62
     7
370
    15
100
AcDbLine
 10
152.1910120004
 20
103.3936583102
 30
0.0
 11
124.494360131
 21
62.1674067534
 31
0.0
  0
ARC
  5
91
330
1F
100
AcDbEntity
  8
0
  6
Continuous
 62
     7
370
    15
100
AcDbCircle
 10
119.5139374983
 20
65.5133580978
 30
0.0
 40
5.999999999999996
100
AcDbArc
 50
228.8140748343
 51
326.1059744493
  0
LINE
  5
92
330
1F
100
AcDbEntity
  8
0
  6
Continuous
 62
     7
370
    15
100
AcDbLine
 10
115.562909851
 20
60.9978979296
 30
0.0
 11
68.4471937861
 21
102.2241494864
 31
0.0
  0
ARC
  5
93
330
1F
100
AcDbEntity
  8
0
  6
Continuous
 62
     7
370
    15
100
AcDbCircle
 10
72.3982214333
 20
106.7396096546
 30
0.0
 40
6.000000000000014
100
AcDbArc
 50
90.0
 51
228.8140748343
  0
LINE
  5
94
330
1F
100
AcDbEntity
  8
0
  6
Continuous
 62
     7
370
    15
100
AcDbLine
 10
72.3982214333
 20
112.7396096546
 30
0.0
 11
147.2105893677
 21
112.7396096546
 31
0.0
  0
ARC
  5
95
330
1F
100
AcDbEntity
  8
0
  6
Continuous
 62
     7
370
    15
100
AcDbCircle
 10
147.2105893677
 20
106.7396096546
 30
0.0
 40
6.000000000000014
100
AcDbArc
 50
326.1059744493
 51
90.0
  0
LINE
  5
96
330
1F
100
AcDbEntity
  8
0
  6
Continuous
 62
     7
370
    15
100
AcDbLine
 10
-66.3573436056
 20
41.0
 30
0.0
 11
61.7052635726
 21
41.0
 31
0.0
  0
ARC
  5
97
330
1F
100
AcDbEntity
  8
0
  6
Continuous
 62
     7
370
    15
100
AcDbCircle
 10
-66.3573436056
 20
47.0
 30
0.0
 40
6.0
100
AcDbArc
 50
131.1859251657
 51
270.0
  0
LINE
  5
98
330
1F
100
AcDbEntity
  8
0
  6
Continuous
 62
     7
370
    15
100
AcDbLine
 10
-70.3083712528
 20
51.5154601682
 30
0.0
 11
-6.2770676637
 21
107.5428508087
 31
0.0
  0
ARC
  5
99
330
1F
100
AcDbEntity
  8
0
  6
Continuous
 62
     7
370
    15
100
AcDbCircle
 10
-2.3260400165
 20
103.0273906404
 30
0.0
 40
5.99999999999999
100
AcDbArc
 50
48.8140748343
 51
131.1859251657
  0
LINE
  5
9A
330
1F
100
AcDbEntity
  8
0
  6
Continuous
 62
     7
370
    15
100
AcDbLine
 10
1.6249876307
 20
107.5428508087
 30
0.0
 11
65.6562912198
 21
51.5154601682
 31
0.0
  0
ARC
  5
9B
330
1F
100
AcDbEntity
  8
0
  6
Continuous
 62
     7
370
    15
100
AcDbCircle
 10
61.7052635726
 20
47.0
 30
0.0
 40
6.000000000000004
100
AcDbArc
 50
270.0
 51
48.8140748343
  0
LINE
  5
9C
330
1F
100
AcDbEntity
  8
0
  6
Continuous
 62
     7
370
    15
100
AcDbLine
 10
-151.8626694007
 20
112.7396096546
 30
0.0
 11
-77.0503014664
 21
112.7396096546
 31
0.0
  0
ARC
  5
9D
330
1F
100
AcDbEntity
  8
0
  6
Continuous
 62
     7
370
    15
100
AcDbCircle
 10
-77.0503014664
 20
106.7396096546
 30
0.0
 40
6.000000000000014
100
AcDbArc
 50
311.1859251657
 51
90.0
  0
LINE
  5
9E
330
1F
100
AcDbEntity
  8
0
  6
Continuous
 62
     7
370
    15
100
AcDbLine
 10
-73.0992738192
 20
102.2241494864
 30
0.0
 11
-120.2149898841
 21
60.9978979296
 31
0.0
  0
ARC
  5
9F
330
1F
100
AcDbEntity
  8
0
  6
Continuous
 62
     7
370
    15
100
AcDbCircle
 10
-124.1660175313
 20
65.5133580978
 30
0.0
 40
6.00000000000002
100
AcDbArc
 50
213.8940255507
 51
311.1859251657
  0
LINE
  5
A0
330
1F
100
AcDbEntity
  8
0
  6
Continuous
 62
     7
370
    15
100
AcDbLine
 10
-129.146440164
 20
62.1674067534
 30
0.0
 11
-156.8430920335
 21
103.3936583102
 31
0.0
  0
ARC
  5
A1
330
1F
100
AcDbEntity
  8
0
  6
Continuous
 62
     7
370
    15
100
AcDbCircle
 10
-151.8626694007
 20
106.7396096546
 30
0.0
 40
6.000000000000004
100
AcDbArc
 50
90.0
 51
213.8940255507
  0
LINE
  5
A2
330
1F
100
AcDbEntity
  8
0
  6
Continuous
 62
     7
370
    15
100
AcDbLine
 10
-213.3260400165
 20
96.04938436
 30
0.0
 11
-213.3260400165
 21
-84.1594269138
 31
0.0
  0
ARC
  5
A3
330
1F
100
AcDbEntity
  8
0
  6
Continuous
 62
     7
370
    15
100
AcDbCircle
 10
-207.3260400165
 20
96.04938436
 30
0.0
 40
6.000000000000028
100
AcDbArc
 50
33.8940255507
 51
180.0
  0
LINE
  5
A4
330
1F
100
AcDbEntity
  8
0
  6
Continuous
 62
     7
370
    15
100
AcDbLine
 10
-202.3456173838
 20
99.3953357044
 30
0.0
 11
-138.6938812917
 21
4.6502200663
 31
0.0
  0
ARC
  5
A5
330
1F
100
AcDbEntity
  8
0
  6
Continuous
 62
     7
370
    15
100
AcDbCircle
 10
-143.6743039244
 20
1.3042687218
 30
0.0
 40
6.000000000000002
100
AcDbArc
 50
323.3219595963
 51
33.8940255507
  0
LINE
  5
A6
330
1F
100
AcDbEntity
  8
0
  6
Continuous
 62
     7
370
    15
100
AcDbLine
 10
-138.8622761114
 20
-2.2796381306
 30
0.0
 11
-202.5140122035
 21
-87.7433337662
 31
0.0
  0
ARC
  5
A7
330
1F
100
AcDbEntity
  8
0
  6
Continuous
 62
     7
370
    15
100
AcDbCircle
 10
-207.3260400165
 20
-84.1594269138
 30
0.0
 40
6.0
100
AcDbArc
 50
180.0
 51
323.3219595963
  0
CIRCLE
  5
A8
330
1F
100
AcDbEntity
  8
0
  6
Continuous
 62
     7
370
    15
100
AcDbCircle
 10
241.6739599835
 20
-142.2603903454
 30
0.0
 40
5.25
  0
CIRCLE
  5
A9
330
1F
100
AcDbEntity
  8
0
  6
Continuous
 62
     7
370
    15
100
AcDbCircle
 10
-2.3260400165
 20
145.7396096546
 30
0.0
 40
5.25
  0
LINE
  5
AA
330
1F
100
AcDbEntity
  8
0
  6
Continuous
 62
     7
370
    15
100
AcDbLine
 10
-212.5242279349
 20
-142.2603903454
 30
0.0
 11
207.8721479019
 21
-142.2603903454
 31
0.0
  0
ARC
  5
AB
330
1F
100
AcDbEntity
  8
0
  6
Continuous
 62
     7
370
    15
100
AcDbCircle
 10
207.8721479019
 20
-152.2603903454
 30
0.0
 40
10.00000000000003
100
AcDbArc
 50
16.4804366015
 51
90.0
  0
ARC
  5
AC
330
1F
100
AcDbEntity
  8
0
  6
Continuous
 62
     7
370
    15
100
AcDbCircle
 10
241.6739599835
 20
-142.2603903454
 30
0.0
 40
25.25000000000004
100
AcDbArc
 50
196.4804366015
 51
73.5195633985
  0
ARC
  5
AD
330
1F
100
AcDbEntity
  8
0
  6
Continuous
 62
     7
370
    15
100
AcDbCircle
 10
251.6739599835
 20
-108.4585782638
 30
0.0
 40
10.00000000000001
100
AcDbArc
 50
180.0
 51
253.5195633985
  0
LINE
  5
AE
330
1F
100
AcDbEntity
  8
0
  6
Continuous
 62
     7
370
    15
100
AcDbLine
 10
241.6739599835
 20
-108.4585782638
 30
0.0
 11
241.6739599835
 21
135.573559659
 31
0.0
  0
ARC
  5
AF
330
1F
100
AcDbEntity
  8
0
  6
Continuous
 62
     7
370
    15
100
AcDbCircle
 10
231.5079099879
 20
135.573559659
 30
0.0
 40
10.1660499955594
100
AcDbArc
 50
0.0
 51
90.0
  0
LINE
  5
B0
330
1F
100
AcDbEntity
  8
0
  6
Continuous
 62
     7
370
    15
100
AcDbLine
 10
231.5079099879
 20
145.7396096546
 30
0.0
 11
31.4757720651
 21
145.7396096546
 31
0.0
  0
ARC
  5
B1
330
1F
100
AcDbEntity
  8
0
  6
Continuous
 62
     7
370
    15
100
AcDbCircle
 10
31.4757720651
 20
155.7396096546
 30
0.0
 40
10.00000000000003
100
AcDbArc
 50
196.4804366015
 51
270.0
  0
ARC
  5
B2
330
1F
100
AcDbEntity
  8
0
  6
Continuous
 62
     7
370
    15
100
AcDbCircle
 10
-2.3260400165
 20
145.7396096546
 30
0.0
 40
25.25
100
AcDbArc
 50
16.4804366015
 51
163.5195633985
  0
ARC
  5
B3
330
1F
100
AcDbEntity
  8
0
  6
Continuous
 62
     7
370
    15
100
AcDbCircle
 10
-36.1278520981
 20
155.7396096546
 30
0.0
 40
10.00000000000003
100
AcDbArc
 50
270.0
 51
343.5195633985
  0
LINE
  5
B4
330
1F
100
AcDbEntity
  8
0
  6
Continuous
 62
     7
370
    15
100
AcDbLine
 10
-36.1278520981
 20
145.7396096546
 30
0.0
 11
-236.159990021
 21
145.7396096546
 31
0.0
  0
ARC
  5
B5
330
1F
100
AcDbEntity
  8
0
  6
Continuous
 62
     7
370
    15
100
AcDbCircle
 10
-236.159990021
 20
135.573559659
 30
0.0
 40
10.16604999555943
100
AcDbArc
 50
90.0
 51
180.0
  0
LINE
  5
B6
330
1F
100
AcDbEntity
  8
0
  6
Continuous
 62
     7
370
    15
100
AcDbLine
 10
-246.3260400165
 20
135.573559659
 30
0.0
 11
-246.3260400165
 21
-108.4585782638
 31
0.0
  0
ARC
  5
B7
330
1F
100
AcDbEntity
  8
0
  6
Continuous
 62
     7
370
    15
100
AcDbCircle
 10
-256.3260400165
 20
-108.4585782638
 30
0.0
 40
10.00000000000003
100
AcDbArc
 50
286.4804366015
 51
0.0
  0
ARC
  5
B8
330
1F
100
AcDbEntity
  8
0
  6
Continuous
 62
     7
370
    15
100
AcDbCircle
 10
-246.3260400165
 20
-142.2603903454
 30
0.0
 40
25.24999999999999
100
AcDbArc
 50
106.4804366015
 51
343.5195633985
  0
ARC
  5
B9
330
1F
100
AcDbEntity
  8
0
  6
Continuous
 62
     7
370
    15
100
AcDbCircle
 10
-212.5242279349
 20
-152.2603903454
 30
0.0
 40
10.00000000000145
100
AcDbArc
 50
90.0
 51
163.5195633985
  0
CIRCLE
  5
BA
330
1F
100
AcDbEntity
  8
0
  6
Continuous
 62
     7
370
    15
100
AcDbCircle
 10
-246.3260400165
 20
-142.2603903454
 30
0.0
 40
5.25
  0
LINE
  5
BB
330
1F
100
AcDbEntity
  8
0
  6
Continuous
 62
     7
370
    15
100
AcDbLine
 10
-70.3083712528
 20
-49.5154601682
 30
0.0
 11
-6.2770676637
 21
-105.5428508087
 31
0.0
  0
ARC
  5
BC
330
1F
100
AcDbEntity
  8
0
  6
Continuous
 62
     7
370
    15
100
AcDbCircle
 10
-66.3573436056
 20
-45.0
 30
0.0
 40
6.000000000000004
100
AcDbArc
 50
90.0
 51
228.8140748343
  0
LINE
  5
BD
330
1F
100
AcDbEntity
  8
0
  6
Continuous
 62
     7
370
    15
100
AcDbLine
 10
-66.3573436056
 20
-39.0
 30
0.0
 11
61.7052635726
 21
-39.0
 31
0.0
  0
ARC
  5
BE
330
1F
100
AcDbEntity
  8
0
  6
Continuous
 62
     7
370
    15
100
AcDbCircle
 10
61.7052635726
 20
-45.0
 30
0.0
 40
6.0
100
AcDbArc
 50
311.1859251657
 51
90.0
  0
LINE
  5
BF
330
1F
100
AcDbEntity
  8
0
  6
Continuous
 62
     7
370
    15
100
AcDbLine
 10
1.6249876307
 20
-105.5428508087
 30
0.0
 11
65.6562912198
 21
-49.5154601682
 31
0.0
  0
ARC
  5
C0
330
1F
100
AcDbEntity
  8
0
  6
Continuous
 62
     7
370
    15
100
AcDbCircle
 10
-2.3260400165
 20
-101.0273906404
 30
0.0
 40
6.00000000000001
100
AcDbArc
 50
228.8140748343
 51
311.1859251657
  0
LINE
  5
C1
330
1F
100
AcDbEntity
  8
0
  6
Continuous
 62
     7
370
    15
100
AcDbLine
 10
-40.2969837439
 20
-17.385039349
 30
0.0
 11
-28.1462817511
 21
-17.385039349
 31
0.0
  0
LINE
  5
C2
330
1F
100
AcDbEntity
  8
0
  6
Continuous
 62
     7
370
    15
100
AcDbLine
 10
-28.1462817511
 20
-17.385039349
 30
0.0
 11
-28.1462817511
 21
22.864161002
 31
0.0
  0
LINE
  5
C3
330
1F
100
AcDbEntity
  8
0
  6
Continuous
 62
     7
370
    15
100
AcDbLine
 10
-28.1462817511
 20
22.864161002
 30
0.0
 11
-40.2969837439
 21
22.864161002
 31
0.0
  0
LINE
  5
C4
330
1F
100
AcDbEntity
  8
0
  6
Continuous
 62
     7
370
    15
100
AcDbLine
 10
-40.2969837439
 20
22.864161002
 30
0.0
 11
-40.2969837439
 21
28.9395119983
 31
0.0
  0
LINE
  5
C5
330
1F
100
AcDbEntity
  8
0
  6
Continuous
 62
     7
370
    15
100
AcDbLine
 10
-40.2969837439
 20
28.9395119983
 30
0.0
 11
-8.4013910129
 21
28.9395119983
 31
0.0
  0
LINE
  5
C6
330
1F
100
AcDbEntity
  8
0
  6
Continuous
 62
     7
370
    15
100
AcDbLine
 10
-8.4013910129
 20
28.9395119983
 30
0.0
 11
-8.4013910129
 21
22.864161002
 31
0.0
  0
LINE
  5
C7
330
1F
100
AcDbEntity
  8
0
  6
Continuous
 62
     7
370
    15
100
AcDbLine
 10
-8.4013910129
 20
22.864161002
 30
0.0
 11
-20.5520930056
 21
22.864161002
 31
0.0
  0
LINE
  5
C8
330
1F
100
AcDbEntity
  8
0
  6
Continuous
 62
     7
370
    15
100
AcDbLine
 10
-20.5520930056
 20
22.864161002
 30
0.0
 11
-20.5520930056
 21
-17.385039349
 31
0.0
  0
LINE
  5
C9
330
1F
100
AcDbEntity
  8
0
  6
Continuous
 62
     7
370
    15
100
AcDbLine
 10
-20.5520930056
 20
-17.385039349
 30
0.0
 11
-8.4013910129
 21
-17.385039349
 31
0.0
  0
LINE
  5
CA
330
1F
100
AcDbEntity
  8
0
  6
Continuous
 62
     7
370
    15
100
AcDbLine
 10
-8.4013910129
 20
-17.385039349
 30
0.0
 11
-8.4013910129
 21
-23.4603903454
 31
0.0
  0
LINE
  5
CB
330
1F
100
AcDbEntity
  8
0
  6
Continuous
 62
     7
370
    15
100
AcDbLine
 10
-8.4013910129
 20
-23.4603903454
 30
0.0
 11
-40.2969837439
 21
-23.4603903454
 31
0.0
  0
LINE
  5
CC
330
1F
100
AcDbEntity
  8
0
  6
Continuous
 62
     7
370
    15
100
AcDbLine
 10
-40.2969837439
 20
-23.4603903454
 30
0.0
 11
-40.2969837439
 21
-17.385039349
 31
0.0
  0
LINE
  5
CD
330
1F
100
AcDbEntity
  8
0
  6
Continuous
 62
     7
370
    15
100
AcDbLine
 10
30.328971589
 20
28.9395119983
 30
0.0
 11
37.9231603345
 21
28.9395119983
 31
0.0
  0
LINE
  5
CE
330
1F
100
AcDbEntity
  8
0
  6
Continuous
 62
     7
370
    15
100
AcDbLine
 10
37.9231603345
 20
28.9395119983
 30
0.0
 11
37.9231603345
 21
-23.4603903454
 31
0.0
  0
LINE
  5
CF
330
1F
100
AcDbEntity
  8
0
  6
Continuous
 62
     7
370
    15
100
AcDbLine
 10
37.9231603345
 20
-23.4603903454
 30
0.0
 11
27.8964580065
 21
-23.4603903454
 31
0.0
  0
LINE
  5
D0
330
1F
100
AcDbEntity
  8
0
  6
Continuous
 62
     7
370
    15
100
AcDbLine
 10
27.8964580065
 20
-23.4603903454
 30
0.0
 11
13.8709406672
 21
9.3014145394
 31
0.0
  0
LINE
  5
D1
330
1F
100
AcDbEntity
  8
0
  6
Continuous
 62
     7
370
    15
100
AcDbLine
 10
13.8709406672
 20
9.3014145394
 30
0.0
 11
9.8246619762
 21
19.8264855038
 31
0.0
  0
LINE
  5
D2
330
1F
100
AcDbEntity
  8
0
  6
Continuous
 62
     7
370
    15
100
AcDbLine
 10
9.8246619762
 20
19.8264855038
 30
0.0
 11
9.8246619762
 21
-23.4603903454
 31
0.0
  0
LINE
  5
D3
330
1F
100
AcDbEntity
  8
0
  6
Continuous
 62
     7
370
    15
100
AcDbLine
 10
9.8246619762
 20
-23.4603903454
 30
0.0
 11
2.2304732308
 21
-23.4603903454
 31
0.0
  0
LINE
  5
D4
330
1F
100
AcDbEntity
  8
0
  6
Continuous
 62
     7
370
    15
100
AcDbLine
 10
2.2304732308
 20
-23.4603903454
 30
0.0
 11
2.2304732308
 21
28.9395119983
 31
0.0
  0
LINE
  5
D5
330
1F
100
AcDbEntity
  8
0
  6
Continuous
 62
     7
370
    15
100
AcDbLine
 10
2.2304732308
 20
28.9395119983
 30
0.0
 11
12.1385163596
 21
28.9395119983
 31
0.0
  0
LINE
  5
D6
330
1F
100
AcDbEntity
  8
0
  6
Continuous
 62
     7
370
    15
100
AcDbLine
 10
12.1385163596
 20
28.9395119983
 30
0.0
 11
25.4995421837
 21
-2.2678573776
 31
0.0
  0
LINE
  5
D7
330
1F
100
AcDbEntity
  8
0
  6
Continuous
 62
     7
370
    15
100
AcDbLine
 10
25.4995421837
 20
-2.2678573776
 30
0.0
 11
30.328971589
 21
-14.3473638508
 31
0.0
  0
LINE
  5
D8
330
1F
100
AcDbEntity
  8
0
  6
Continuous
 62
     7
370
    15
100
AcDbLine
 10
30.328971589
 20
-14.3473638508
 30
0.0
 11
30.328971589
 21
28.9395119983
 31
0.0
  0
SPLINE
  5
D9
330
1F
100
AcDbEntity
  8
0
  6
Continuous
 62
     7
370
    15
100
AcDbSpline
210
0.0
220
0.0
230
1.0
 70
     8
 71
     3
 72
    13
 73
     9
 74
     0
 42
0.000000001
 43
0.00000001
 40
0.0
 40
0.0
 40
0.0
 40
0.0
 40
0.2629342745513348
 40
0.5143647563736868
 40
0.6373177871926458
 40
0.7589996230405927
 40
0.8797707883104352
 40
1.0
 40
1.0
 40
1.0
 40
1.0
 10
70.3052557819713
 20
29.69893087289546
 30
0.0
 10
71.48532373607088
 20
29.67766459657278
 30
0.0
 10
73.79382979428863
 20
29.63606247734221
 30
0.0
 10
76.63443378206252
 20
29.26812069497701
 30
0.0
 10
78.82278331243909
 20
28.86172414521429
 30
0.0
 10
80.4146075968539
 20
28.46717921606244
 30
0.0
 10
81.97345216709003
 20
27.99726182539302
 30
0.0
 10
82.98410350020046
 20
27.6125817560795
 30
0.0
 10
83.48829280731238
 20
27.42067424925415
 30
0.0
  0
LINE
  5
DA
330
1F
100
AcDbEntity
  8
0
  6
Continuous
 62
     7
370
    15
100
AcDbLine
 10
83.4882928073
 20
27.4206742493
 30
0.0
 11
83.4882928073
 21
20.5859043783
 31
0.0
  0
SPLINE
  5
DB
330
1F
100
AcDbEntity
  8
0
  6
Continuous
 62
     7
370
    15
100
AcDbSpline
210
0.0
220
0.0
230
1.0
 70
     8
 71
     3
 72
    13
 73
     9
 74
     0
 42
0.000000001
 43
0.00000001
 40
0.0
 40
0.0
 40
0.0
 40
0.0
 40
0.2432432115958457
 40
0.48503130675694
 40
0.6072204693392939
 40
0.7333344144511433
 40
0.8647086109366648
 40
1.0
 40
1.0
 40
1.0
 40
1.0
 10
83.48829280731238
 20
20.58590437833024
 30
0.0
 10
82.48014643855247
 20
21.03429545042641
 30
0.0
 10
80.46988457992211
 20
21.92839525370604
 30
0.0
 10
77.82824373644638
 20
22.73088259673282
 30
0.0
 10
75.65447915949778
 20
23.19434403824435
 30
0.0
 10
73.9500162785888
 20
23.43999981080198
 30
0.0
 10
72.17525163819505
 20
23.60042142536349
 30
0.0
 10
70.96615056334961
 20
23.61578516409113
 30
0.0
 10
70.35271946163049
 20
23.62357987651864
 30
0.0
  0
SPLINE
  5
DC
330
1F
100
AcDbEntity
  8
0
  6
Continuous
 62
     7
370
    15
100
AcDbSpline
210
0.0
220
0.0
230
1.0
 70
     8
 71
     3
 72
    23
 73
    19
 74
     0
 42
0.000000001
 43
0.00000001
 40
0.0
 40
0.0
 40
0.0
 40
0.0
 40
0.0670981242722617
 40
0.1309759062433335
 40
0.1922163869542906
 40
0.251769808319032
 40
0.3096847194213506
 40
0.3665125233135301
 40
0.4235187108853609
 40
0.480372032427633
 40
0.5380321837013045
 40
0.5972742619708008
 40
0.6584306056386225
 40
0.7220421674016109
 40
0.7879120315897784
 40
0.8559727583910854
 40
0.926461190136691
 40
0.9999999999999999
 40
0.9999999999999999
 40
0.9999999999999999
 40
0.9999999999999999
 10
70.35271946163049
 20
23.62357987651864
 30
0.0
 10
69.65545265151142
 20
23.60674592090513
 30
0.0
 10
68.29438401748857
 20
23.57388594730596
 30
0.0
 10
66.31592401693419
 20
23.27723775227314
 30
0.0
 10
64.447943025425
 20
22.82633314910277
 30
0.0
 10
62.71287757871008
 20
22.1533373197682
 30
0.0
 10
61.10203851035091
 20
21.3205455238196
 30
0.0
 10
59.61565899694708
 20
20.32743624851441
 30
0.0
 10
58.26235467355267
 20
19.17593885033348
 30
0.0
 10
57.04629617316964
 20
17.86991346489361
 30
0.0
 10
55.95435912230746
 20
16.42796880907339
 30
0.0
 10
55.02731277697023
 20
14.82428193841323
 30
0.0
 10
54.19723196301342
 20
13.10014688451454
 30
0.0
 10
53.53117313120323
 20
11.23265486924146
 30
0.0
 10
52.98877640580449
 20
9.251055332427963
 30
0.0
 10
52.64004580403879
 20
7.154941167882104
 30
0.0
 10
52.38255378217126
 20
4.964838400025838
 30
0.0
 10
52.36240613151587
 20
3.468154355465893
 30
0.0
 10
52.35211895088122
 20
2.70396306672896
 30
0.0
  0
SPLINE
  5
DD
330
1F
100
AcDbEntity
  8
0
  6
Continuous
 62
     7
370
    15
100
AcDbSpline
210
0.0
220
0.0
230
1.0
 70
     8
 71
     3
 72
    23
 73
    19
 74
     0
 42
0.000000001
 43
0.00000001
 40
0.0
 40
0.0
 40
0.0
 40
0.0
 40
0.0776967714840032
 40
0.1509619938714881
 40
0.2212415611529965
 40
0.2875559640017784
 40
0.350885954366541
 40
0.4108762646889429
 40
0.4684338152580953
 40
0.5243810448878413
 40
0.5788733757496394
 40
0.6330758261547904
 40
0.6878469618937101
 40
0.7440192785931001
 40
0.8024561126406587
 40
0.8641267637851902
 40
0.9296015450136527
 40
0.9999999999999999
 40
0.9999999999999999
 40
0.9999999999999999
 40
0.9999999999999999
 10
52.35211895088122
 20
2.70396306672896
 30
0.0
 10
52.3631162299421
 20
1.908645019012377
 30
0.0
 10
52.38448354215448
 20
0.3633710526417924
 30
0.0
 10
52.56151430354238
 20
-1.896294343182498
 30
0.0
 10
52.87273480189357
 20
-4.022628718057076
 30
0.0
 10
53.27612883571828
 20
-6.03064221425339
 30
0.0
 10
53.83267246068588
 20
-7.893206327051174
 30
0.0
 10
54.52192719690663
 20
-9.614296386607476
 30
0.0
 10
55.34162136798901
 20
-11.19307367950904
 30
0.0
 10
56.30052792963382
 20
-12.62570757310707
 30
0.0
 10
57.41592610740476
 20
-13.89510432904277
 30
0.0
 10
58.67120409931294
 20
-15.00816252567796
 30
0.0
 10
60.07220573402113
 20
-15.96094196433008
 30
0.0
 10
61.61257459931022
 20
-16.76697151963215
 30
0.0
 10
63.31529057125395
 20
-17.37758595461511
 30
0.0
 10
65.16296740407505
 20
-17.83238035365654
 30
0.0
 10
67.17346461028286
 20
-18.08814041703043
 30
0.0
 10
68.56421367128915
 20
-18.12523752224518
 30
0.0
 10
69.28478666929861
 20
-18.14445822357193
 30
0.0
  0
SPLINE
  5
DE
330
1F
100
AcDbEntity
  8
0
  6
Continuous
 62
     7
370
    15
100
AcDbSpline
210
0.0
220
0.0
230
1.0
 70
     8
 71
     3
 72
    15
 73
    11
 74
     0
 42
0.000000001
 43
0.00000001
 40
0.0
 40
0.0
 40
0.0
 40
0.0
 40
0.1181377071626314
 40
0.2453407520265959
 40
0.378275432288822
 40
0.5101308509081706
 40
0.6425504600250226
 40
0.7708234786150027
 40
0.8918702657019117
 40
1.0
 40
1.0
 40
1.0
 40
1.0
 10
69.28478666929861
 20
-18.14445822357193
 30
0.0
 10
69.54989017125769
 20
-18.13876423618247
 30
0.0
 10
70.10043998382503
 20
-18.12693933131751
 30
0.0
 10
70.94734386546386
 20
-18.0644876971363
 30
0.0
 10
71.82267817805729
 20
-17.97432852092837
 30
0.0
 10
72.70374119410897
 20
-17.83767153225628
 30
0.0
 10
73.57256570089054
 20
-17.69115384592768
 30
0.0
 10
74.40899056799057
 20
-17.50372868879202
 30
0.0
 10
75.1808530856373
 20
-17.2830134027229
 30
0.0
 10
75.66545832152264
 20
-17.11047063178957
 30
0.0
 10
75.89410406184136
 20
-17.02906175158088
 30
0.0
  0
LINE
  5
DF
330
1F
100
AcDbEntity
  8
0
  6
Continuous
 62
     7
370
    15
100
AcDbLine
 10
75.8941040618
 20
-17.0290617516
 30
0.0
 11
75.8941040618
 21
0.0815947656
 31
0.0
  0
LINE
  5
E0
330
1F
100
AcDbEntity
  8
0
  6
Continuous
 62
     7
370
    15
100
AcDbLine
 10
75.8941040618
 20
0.0815947656
 30
0.0
 11
65.3571671775
 21
0.0815947656
 31
0.0
  0
LINE
  5
E1
330
1F
100
AcDbEntity
  8
0
  6
Continuous
 62
     7
370
    15
100
AcDbLine
 10
65.3571671775
 20
0.0815947656
 30
0.0
 11
65.3571671775
 21
6.1569457619
 31
0.0
  0
LINE
  5
E2
330
1F
100
AcDbEntity
  8
0
  6
Continuous
 62
     7
370
    15
100
AcDbLine
 10
65.3571671775
 20
6.1569457619
 30
0.0
 11
83.4882928073
 21
6.1569457619
 31
0.0
  0
LINE
  5
E3
330
1F
100
AcDbEntity
  8
0
  6
Continuous
 62
     7
370
    15
100
AcDbLine
 10
83.4882928073
 20
6.1569457619
 30
0.0
 11
83.4882928073
 21
-21.004144923
 31
0.0
  0
SPLINE
  5
E4
330
1F
100
AcDbEntity
  8
0
  6
Continuous
 62
     7
370
    15
100
AcDbSpline
210
0.0
220
0.0
230
1.0
 70
     8
 71
     3
 72
    15
 73
    11
 74
     0
 42
0.000000001
 43
0.00000001
 40
0.0
 40
0.0
 40
0.0
 40
0.0
 40
0.1215533759830867
 40
0.246873064555708
 40
0.3746714108345291
 40
0.5031073905946044
 40
0.6316150506110912
 40
0.7582927467139842
 40
0.8812578156137557
 40
1.0
 40
1.0
 40
1.0
 40
1.0
 10
83.48829280731238
 20
-21.00414492303836
 30
0.0
 10
82.91766593875988
 20
-21.25645732068897
 30
0.0
 10
81.75873141622566
 20
-21.76889997667965
 30
0.0
 10
79.94552839073329
 20
-22.41358706874575
 30
0.0
 10
78.06657835820563
 20
-22.96640812239535
 30
0.0
 10
76.14687367639856
 20
-23.43132384216355
 30
0.0
 10
74.20919985450863
 20
-23.78547241211978
 30
0.0
 10
72.28350423101439
 20
-24.02788520392768
 30
0.0
 10
70.3991400354222
 20
-24.19425535860736
 30
0.0
 10
69.15855498514937
 20
-24.21139105918041
 30
0.0
 10
68.54909963458111
 20
-24.21980921994874
 30
0.0
  0
SPLINE
  5
E5
330
1F
100
AcDbEntity
  8
0
  6
Continuous
 62
     7
370
    15
100
AcDbSpline
210
0.0
220
0.0
230
1.0
 70
     8
 71
     3
 72
    23
 73
    19
 74
     0
 42
0.000000001
 43
0.00000001
 40
0.0
 40
0.0
 40
0.0
 40
0.0
 40
0.06647500662519
 40
0.1298691366212019
 40
0.1909170876040554
 40
0.2499362502088425
 40
0.3075602225872332
 40
0.3634113090814332
 40
0.4192531151601887
 40
0.474963282602912
 40
0.53133469860723
 40
0.5892934796499244
 40
0.6494922147887103
 40
0.7123114536155499
 40
0.778560625297998
 40
0.8481967065368429
 40
0.9217767357109493
 40
1.0
 40
1.0
 40
1.0
 40
1.0
 10
68.54909963458111
 20
-24.21980921994874
 30
0.0
 10
67.65411956445196
 20
-24.20073430388653
 30
0.0
 10
65.90563852019719
 20
-24.16346852527458
 30
0.0
 10
63.35343640057077
 20
-23.83056011968603
 30
0.0
 10
60.93511763945779
 20
-23.31845296266043
 30
0.0
 10
58.65547633269166
 20
-22.58056241943968
 30
0.0
 10
56.53114559003941
 20
-21.63366345029788
 30
0.0
 10
54.55941810981943
 20
-20.48226892768991
 30
0.0
 10
52.75144970104463
 20
-19.12954408171928
 30
0.0
 10
51.11365581017882
 20
-17.56387443659523
 30
0.0
 10
49.66127122230176
 20
-15.78968082400217
 30
0.0
 10
48.36639426488193
 20
-13.82358227024237
 30
0.0
 10
47.28776868520215
 20
-11.63492076140554
 30
0.0
 10
46.34893304863204
 20
-9.263681760953904
 30
0.0
 10
45.63199150294478
 20
-6.682105006206268
 30
0.0
 10
45.13083459607542
 20
-3.905401451212247
 30
0.0
 10
44.81663140905106
 20
-0.9381502674784984
 30
0.0
 10
44.77789224723422
 20
1.105203598406076
 30
0.0
 10
44.7579302054102
 20
2.158130750648233
 30
0.0
  0
SPLINE
  5
E6
330
1F
100
AcDbEntity
  8
0
  6
Continuous
 62
     7
370
    15
100
AcDbSpline
210
0.0
220
0.0
230
1.0
 70
     8
 71
     3
 72
    23
 73
    19
 74
     0
 42
0.000000001
 43
0.00000001
 40
0.0
 40
0.0
 40
0.0
 40
0.0
 40
0.0742252771806094
 40
0.1452246251349339
 40
0.2126888929148228
 40
0.2779431301589962
 40
0.3406829667072264
 40
0.4014210807773964
 40
0.4601092411464434
 40
0.5180957302352658
 40
0.5755133445412514
 40
0.6326683894261543
 40
0.6904145715872763
 40
0.7491594371175395
 40
0.8094359727667926
 40
0.8709469375778515
 40
0.9344445163449575
 40
1.0
 40
1.0
 40
1.0
 40
1.0
 10
44.7579302054102
 20
2.158130750648233
 30
0.0
 10
44.78101107996912
 20
3.207181476362492
 30
0.0
 10
44.82616970359337
 20
5.259689788573728
 30
0.0
 10
45.16935420900259
 20
8.250649094072886
 30
0.0
 10
45.75346806144244
 20
11.0732035678062
 30
0.0
 10
46.5551394040725
 20
13.72058915165
 30
0.0
 10
47.57635108932561
 20
16.1896382583166
 30
0.0
 10
48.80375673501933
 20
18.45672091176377
 30
0.0
 10
50.19500251210231
 20
20.54789661289753
 30
0.0
 10
51.79303744247521
 20
22.42541693487238
 30
0.0
 10
53.56509359161834
 20
24.10776902657964
 30
0.0
 10
55.51583967027399
 20
25.57312323224006
 30
0.0
 10
57.62232001626727
 20
26.84146949747108
 30
0.0
 10
59.90405316885439
 20
27.87082320452221
 30
0.0
 10
62.32505074642977
 20
28.68681221993956
 30
0.0
 10
64.87807152271446
 20
29.28598313130894
 30
0.0
 10
67.55483125230329
 20
29.62897892633552
 30
0.0
 10
69.3787527381247
 20
29.67536698640752
 30
0.0
 10
70.3052557819713
 20
29.69893087289546
 30
0.0
  0
ENDSEC
  0
SECTION
  2
OBJECTS
  0
DICTIONARY
  5
C
330
0
100
AcDbDictionary
281
     1
  3
ACAD_GROUP
350
D
  3
ACAD_LAYOUT
350
1A
  3
ACAD_MLINESTYLE
350
17
  3
ACAD_PLOTSETTINGS
350
19
  3
ACAD_PLOTSTYLENAME
350
E
  3
ACAD_SCALELIST
350
47
  0
DICTIONARY
  5
D
102
{ACAD_REACTORS
330
C
102
}
330
C
100
AcDbDictionary
281
     1
  0
DICTIONARY
  5
1A
102
{ACAD_REACTORS
330
C
102
}
330
C
100
AcDbDictionary
281
     1
  3
Layout1
350
1E
  3
Layout2
350
26
  3
Model
350
22
  0
DICTIONARY
  5
17
102
{ACAD_REACTORS
330
C
102
}
330
C
100
AcDbDictionary
281
     1
  3
Standard
350
18
  0
DICTIONARY
  5
19
102
{ACAD_REACTORS
330
C
102
}
330
C
100
AcDbDictionary
281
     1
  0
ACDBDICTIONARYWDFLT
  5
E
102
{ACAD_REACTORS
330
C
102
}
330
C
100
AcDbDictionary
281
     1
  3
Normal
350
F
100
AcDbDictionaryWithDefault
340
F
  0
DICTIONARY
  5
47
102
{ACAD_REACTORS
330
C
102
}
330
C
100
AcDbDictionary
281
     1
  3
A0
350
48
  3
A1
350
49
  3
A2
350
4A
  3
A3
350
4B
  3
A4
350
4C
  3
A5
350
4D
  3
A6
350
4E
  3
A7
350
4F
  3
A8
350
50
  3
A9
350
51
  3
B0
350
52
  3
B1
350
53
  3
B2
350
54
  3
B3
350
55
  3
B4
350
56
  3
B5
350
57
  3
B6
350
58
  3
B7
350
59
  3
B8
350
5A
  3
B9
350
5B
  3
C0
350
5C
  3
C1
350
5D
  3
C2
350
5E
  3
C3
350
5F
  3
C4
350
60
  3
C5
350
61
  3
C6
350
62
  3
C7
350
63
  3
C8
350
64
  3
C9
350
65
  3
D0
350
66
  3
D1
350
67
  3
D2
350
68
  0
LAYOUT
  5
1E
102
{ACAD_REACTORS
330
1A
102
}
330
1A
100
AcDbPlotSettings
  1

  2
none_device
  4

  6

 40
0.0
 41
0.0
 42
0.0
 43
0.0
 44
0.0
 45
0.0
 46
0.0
 47
0.0
 48
0.0
 49
0.0
140
0.0
141
0.0
142
1.0
143
1.0
 70
   688
 72
     1
 73
     0
 74
     5
  7

 75
    16
147
1.0
148
0.0
149
0.0
100
AcDbLayout
  1
Layout1
 70
     1
 71
     1
 10
0.0
 20
0.0
 11
420.0
 21
297.0
 12
0.0
 22
0.0
 32
0.0
 14
1.0000000000E+20
 24
1.0000000000E+20
 34
1.0000000000E+20
 15
-1.0000000000E+20
 25
-1.0000000000E+20
 35
-1.0000000000E+20
146
0.0
 13
0.0
 23
0.0
 33
0.0
 16
1.0
 26
0.0
 36
0.0
 17
0.0
 27
1.0
 37
0.0
 76
     0
330
1B
  0
LAYOUT
  5
26
102
{ACAD_REACTORS
330
1A
102
}
330
1A
100
AcDbPlotSettings
  1

  2
none_device
  4

  6

 40
0.0
 41
0.0
 42
0.0
 43
0.0
 44
0.0
 45
0.0
 46
0.0
 47
0.0
 48
0.0
 49
0.0
140
0.0
141
0.0
142
1.0
143
1.0
 70
   688
 72
     1
 73
     0
 74
     5
  7

 75
    16
147
1.0
148
0.0
149
0.0
100
AcDbLayout
  1
Layout2
 70
     1
 71
     2
 10
0.0
 20
0.0
 11
0.0
 21
0.0
 12
0.0
 22
0.0
 32
0.0
 14
0.0
 24
0.0
 34
0.0
 15
0.0
 25
0.0
 35
0.0
146
0.0
 13
0.0
 23
0.0
 33
0.0
 16
1.0
 26
0.0
 36
0.0
 17
0.0
 27
1.0
 37
0.0
 76
     0
330
23
  0
LAYOUT
  5
22
102
{ACAD_REACTORS
330
1A
102
}
330
1A
100
AcDbPlotSettings
  1

  2
none_device
  4
ANSI_A_(11.00_x_8.50_Inches)
  6

 40
6.35
 41
19.05
 42
6.35000508
 43
19.05000254
 44
279.4
 45
215.9
 46
134.5447915636
 47
88.0064305441
 48
0.0
 49
0.0
140
0.0
141
0.0
142
0.0202228412
143
1.0
 70
  1696
 72
     0
 73
     0
 74
     0
  7

 75
     0
147
0.0179189148
148
-1300.4909072572
149
0.0
100
AcDbLayout
  1
Model
 70
     1
 71
     0
 10
0.0
 20
0.0
 11
420.0
 21
297.0
 12
0.0
 22
0.0
 32
0.0
 14
-271.5760400165
 24
-167.5103903454
 34
0.0
 15
266.9239599835
 25
170.9896096546
 35
0.0
146
0.0
 13
0.0
 23
0.0
 33
0.0
 16
1.0
 26
0.0
 36
0.0
 17
0.0
 27
1.0
 37
0.0
 76
     0
330
1F
331
29
  0
MLINESTYLE
  5
18
102
{ACAD_REACTORS
330
17
102
}
330
17
100
AcDbMlineStyle
  2
Standard
 70
     0
  3

 62
   256
 51
90.0
 52
90.0
 71
     2
 49
0.5
 62
   256
  6
BYLAYER
 49
-0.5
 62
   256
  6
BYLAYER
  0
ACDBPLACEHOLDER
  5
F
102
{ACAD_REACTORS
330
E
102
}
330
E
  0
SCALE
  5
48
102
{ACAD_REACTORS
330
47
102
}
330
47
100
AcDbScale
 70
     0
300
1:1
140
1.0
141
1.0
290
     1
  0
SCALE
  5
49
102
{ACAD_REACTORS
330
47
102
}
330
47
100
AcDbScale
 70
     0
300
1:2
140
1.0
141
2.0
290
     0
  0
SCALE
  5
4A
102
{ACAD_REACTORS
330
47
102
}
330
47
100
AcDbScale
 70
     0
300
1:4
140
1.0
141
4.0
290
     0
  0
SCALE
  5
4B
102
{ACAD_REACTORS
330
47
102
}
330
47
100
AcDbScale
 70
     0
300
1:5
140
1.0
141
5.0
290
     0
  0
SCALE
  5
4C
102
{ACAD_REACTORS
330
47
102
}
330
47
100
AcDbScale
 70
     0
300
1:8
140
1.0
141
8.0
290
     0
  0
SCALE
  5
4D
102
{ACAD_REACTORS
330
47
102
}
330
47
100
AcDbScale
 70
     0
300
1:10
140
1.0
141
10.0
290
     0
  0
SCALE
  5
4E
102
{ACAD_REACTORS
330
47
102
}
330
47
100
AcDbScale
 70
     0
300
1:16
140
1.0
141
16.0
290
     0
  0
SCALE
  5
4F
102
{ACAD_REACTORS
330
47
102
}
330
47
100
AcDbScale
 70
     0
300
1:20
140
1.0
141
20.0
290
     0
  0
SCALE
  5
50
102
{ACAD_REACTORS
330
47
102
}
330
47
100
AcDbScale
 70
     0
300
1:30
140
1.0
141
30.0
290
     0
  0
SCALE
  5
51
102
{ACAD_REACTORS
330
47
102
}
330
47
100
AcDbScale
 70
     0
300
1:40
140
1.0
141
40.0
290
     0
  0
SCALE
  5
52
102
{ACAD_REACTORS
330
47
102
}
330
47
100
AcDbScale
 70
     0
300
1:50
140
1.0
141
50.0
290
     0
  0
SCALE
  5
53
102
{ACAD_REACTORS
330
47
102
}
330
47
100
AcDbScale
 70
     0
300
1:100
140
1.0
141
100.0
290
     0
  0
SCALE
  5
54
102
{ACAD_REACTORS
330
47
102
}
330
47
100
AcDbScale
 70
     0
300
2:1
140
2.0
141
1.0
290
     0
  0
SCALE
  5
55
102
{ACAD_REACTORS
330
47
102
}
330
47
100
AcDbScale
 70
     0
300
4:1
140
4.0
141
1.0
290
     0
  0
SCALE
  5
56
102
{ACAD_REACTORS
330
47
102
}
330
47
100
AcDbScale
 70
     0
300
8:1
140
8.0
141
1.0
290
     0
  0
SCALE
  5
57
102
{ACAD_REACTORS
330
47
102
}
330
47
100
AcDbScale
 70
     0
300
10:1
140
10.0
141
1.0
290
     0
  0
SCALE
  5
58
102
{ACAD_REACTORS
330
47
102
}
330
47
100
AcDbScale
 70
     0
300
100:1
140
100.0
141
1.0
290
     0
  0
SCALE
  5
59
102
{ACAD_REACTORS
330
47
102
}
330
47
100
AcDbScale
 70
     0
300
1/128" = 1'-0"
140
0.0078125
141
12.0
290
     0
  0
SCALE
  5
5A
102
{ACAD_REACTORS
330
47
102
}
330
47
100
AcDbScale
 70
     0
300
1/64" = 1'-0"
140
0.015625
141
12.0
290
     0
  0
SCALE
  5
5B
102
{ACAD_REACTORS
330
47
102
}
330
47
100
AcDbScale
 70
     0
300
1/32" = 1'-0"
140
0.03125
141
12.0
290
     0
  0
SCALE
  5
5C
102
{ACAD_REACTORS
330
47
102
}
330
47
100
AcDbScale
 70
     0
300
1/16" = 1'-0"
140
0.0625
141
12.0
290
     0
  0
SCALE
  5
5D
102
{ACAD_REACTORS
330
47
102
}
330
47
100
AcDbScale
 70
     0
300
3/32" = 1'-0"
140
0.09375
141
12.0
290
     0
  0
SCALE
  5
5E
102
{ACAD_REACTORS
330
47
102
}
330
47
100
AcDbScale
 70
     0
300
1/8" = 1'-0"
140
0.125
141
12.0
290
     0
  0
SCALE
  5
5F
102
{ACAD_REACTORS
330
47
102
}
330
47
100
AcDbScale
 70
     0
300
3/16" = 1'-0"
140
0.1875
141
12.0
290
     0
  0
SCALE
  5
60
102
{ACAD_REACTORS
330
47
102
}
330
47
100
AcDbScale
 70
     0
300
1/4" = 1'-0"
140
0.25
141
12.0
290
     0
  0
SCALE
  5
61
102
{ACAD_REACTORS
330
47
102
}
330
47
100
AcDbScale
 70
     0
300
3/8" = 1'-0"
140
0.375
141
12.0
290
     0
  0
SCALE
  5
62
102
{ACAD_REACTORS
330
47
102
}
330
47
100
AcDbScale
 70
     0
300
1/2" = 1'-0"
140
0.5
141
12.0
290
     0
  0
SCALE
  5
63
102
{ACAD_REACTORS
330
47
102
}
330
47
100
AcDbScale
 70
     0
300
3/4" = 1'-0"
140
0.75
141
12.0
290
     0
  0
SCALE
  5
64
102
{ACAD_REACTORS
330
47
102
}
330
47
100
AcDbScale
 70
     0
300
1" = 1'-0"
140
1.0
141
12.0
290
     0
  0
SCALE
  5
65
102
{ACAD_REACTORS
330
47
102
}
330
47
100
AcDbScale
 70
     0
300
1-1/2" = 1'-0"
140
1.5
141
12.0
290
     0
  0
SCALE
  5
66
102
{ACAD_REACTORS
330
47
102
}
330
47
100
AcDbScale
 70
     0
300
3" = 1'-0"
140
3.0
141
12.0
290
     0
  0
SCALE
  5
67
102
{ACAD_REACTORS
330
47
102
}
330
47
100
AcDbScale
 70
     0
300
6" = 1'-0"
140
6.0
141
12.0
290
     0
  0
SCALE
  5
68
102
{ACAD_REACTORS
330
47
102
}
330
47
100
AcDbScale
 70
     0
300
1'-0" = 1'-0"
140
12.0
141
12.0
290
     0
  0
ENDSEC
  0
EOF
